Pagina 1 di 1

So What - Trascrizione per chitarra ed intavolatura assolo di Miles Davis

Inviato: domenica 25 agosto 2019, 11:15
da Scuoladimusica
Tiro fuori dalla polvere la trascrizione per chitarra (su intavolatura) del famoso assolo di Miles Davis su So What, uno dei capisaldi della musica e considerato unanimemente uno dei più rilevanti della storia del Jazz, forse affiancato solo dall'assolo di Coltrane su Giant Steps (altro mondo).

Un giorno forse lo metterò in partitura affiancando l'intavolatura alla notazione tradizionale... nel frattempo, buono studio!

Allego un video di jazzmaster(dot)tk che riporta la trascrizione in C del solo per agevolare la lettura :)


Codice: Seleziona tutto


--10-8------------------------------------------------------8-7-8-7--------
----------------10-8-10--------------10-8-10--------10-8-10---------10-----
--------7----7-----------7-7----7-10---------7-7-10------------------------
---------------------------------------------------------------------------
---------------------------------------------------------------------------
---------------------------------------------------------------------------


---------------------10-10-10-10----10-13---10-----------------------9-10--
-----10-8-10-----------------------------------10-8-6-6---------9-10-------
--10---------7-7-------------------------------------------9-10------------
---------------------------------------------------------------------------
---------------------------------------------------------------------------
---------------------------------------------------------------------------


-12-15-12-10-8-------------------------6-8-9-11-----8----------------------
---------------10-8--------------6-9-7----------------11---11-x-9----------
----------------------7-7----8-5-------------------------------------------
---------------------------6-----------------------------------------------
---------------------------------------------------------------------------
---------------------------------------------------------------------------


------------------------------------6-9-10---16---10p9----9-8--------------
-7-6-9-----------------------6-7-9---------------------11-------11-9-8-10--
---------8---8-8--------6-8------------------------------------------------
-------------------6-8-----------------------------------------------------
---------------------------------------------------------------------------
---------------------------------------------------------------------------


--9-10---------10--------------10-10---10-13---12-10--------15--12----12---
-------10-10------10------10-------------------------10-10---------13------
---------------------7-10--------------------------------------------------
---------------------------------------------------------------------------
---------------------------------------------------------------------------
---------------------------------------------------------------------------


--15-12------------------12-----12-15-12-----------------10----------------
---------13-13--8-----13-----13----------13-10------10------9\8-6-6--------
-------------------9-----------------------------10------------------------
---------------------------------------------------------------------------
---------------------------------------------------------------------------
---------------------------------------------------------------------------


-----5-8/10------------------------------------------7h8-7-8-7-------------
---6--------10---8-8-------10-8-10----------10-8-10------------10-10-------
-7--------------------7-10-----------7-7-10--------------------------------
---------------------------------------------------------------------------
---------------------------------------------------------------------------
---------------------------------------------------------------------------


-16--13----------------------------------6---8-6-9-8---11-8------10-12-----
--------14--11-9-7-6---------6---7-6-9-7---9----------------9--------------
---------------------8-8-6-----8-------------------------------------------
---------------------------------------------------------------------------
---------------------------------------------------------------------------
---------------------------------------------------------------------------


-13-15-12-----------12-15-12------10-----------------------------9-10-12---
----------13-----13------------13----13--11p10-10--------10-8-10-----------
--------------14------------------------------------7-10-------------------
---------------------------------------------------------------------------
---------------------------------------------------------------------------
---------------------------------------------------------------------------


--8------------------------------------------------------------------------
----10----10---------------------------------------------------------------
-------10------7-7---------------------------------------------------------
---------------------------------------------------------------------------
---------------------------------------------------------------------------
---------------------------------------------------------------------------

So What - Kind of Blue - Trascrizione per chitarra in intavolatura - Scuoladimusica.org.jpg
So What - Kind of Blue - Trascrizione per chitarra in intavolatura - Scuoladimusica.org.jpg (122.27 KiB) Visto 2321 volte